ISO-10303-21;
HEADER;
/* Generated by software containing ST-Developer
 * from STEP Tools, Inc. (www.steptools.com) 
 */

FILE_DESCRIPTION(
/* description */ (''),
/* implementation_level */ '2;1');

FILE_NAME(
/* name */ 'C:/Users/rueyama/Desktop/47329.step',
/* time_stamp */ '2018-12-24T18:34:06+09:00',
/* author */ ('ryo2003'),
/* organization */ (''),
/* preprocessor_version */ 'ST-DEVELOPER v17.2',
/* originating_system */ 'Autodesk Translation Framework v7.6.0.251',
/* authorisation */ '');

FILE_SCHEMA (('AUTOMOTIVE_DESIGN { 1 0 10303 214 3 1 1 }'));
ENDSEC;

DATA;
#10=MECHANICAL_DESIGN_GEOMETRIC_PRESENTATION_REPRESENTATION('',(#23,#24),
#555);
#11=ITEM_DEFINED_TRANSFORMATION($,$,#351,#371);
#12=ITEM_DEFINED_TRANSFORMATION($,$,#361,#372);
#13=(
REPRESENTATION_RELATIONSHIP($,$,#569,#568)
REPRESENTATION_RELATIONSHIP_WITH_TRANSFORMATION(#11)
SHAPE_REPRESENTATION_RELATIONSHIP()
);
#14=(
REPRESENTATION_RELATIONSHIP($,$,#570,#568)
REPRESENTATION_RELATIONSHIP_WITH_TRANSFORMATION(#12)
SHAPE_REPRESENTATION_RELATIONSHIP()
);
#15=CONTEXT_DEPENDENT_SHAPE_REPRESENTATION(#13,#566);
#16=CONTEXT_DEPENDENT_SHAPE_REPRESENTATION(#14,#567);
#17=NEXT_ASSEMBLY_USAGE_OCCURRENCE('\X2\30B330F330DD30FC30CD30F330C8\X0\1
:1','\X2\30B330F330DD30FC30CD30F330C8\X0\1:1',
'\X2\30B330F330DD30FC30CD30F330C8\X0\1:1',#572,#573,
'\X2\30B330F330DD30FC30CD30F330C8\X0\1:1');
#18=NEXT_ASSEMBLY_USAGE_OCCURRENCE('\X2\30B330F330DD30FC30CD30F330C8\X0\2
:1','\X2\30B330F330DD30FC30CD30F330C8\X0\2:1',
'\X2\30B330F330DD30FC30CD30F330C8\X0\2:1',#572,#574,
'\X2\30B330F330DD30FC30CD30F330C8\X0\2:1');
#19=SHAPE_REPRESENTATION_RELATIONSHIP('SRR','None',#569,#21);
#20=SHAPE_REPRESENTATION_RELATIONSHIP('SRR','None',#570,#22);
#21=ADVANCED_BREP_SHAPE_REPRESENTATION('',(#25),#553);
#22=ADVANCED_BREP_SHAPE_REPRESENTATION('',(#26),#554);
#23=STYLED_ITEM('',(#588),#25);
#24=STYLED_ITEM('',(#588),#26);
#25=MANIFOLD_SOLID_BREP('Body1',#325);
#26=MANIFOLD_SOLID_BREP('Body1',#326);
#27=FACE_OUTER_BOUND('',#45,.T.);
#28=FACE_OUTER_BOUND('',#46,.T.);
#29=FACE_OUTER_BOUND('',#47,.T.);
#30=FACE_OUTER_BOUND('',#48,.T.);
#31=FACE_OUTER_BOUND('',#49,.T.);
#32=FACE_OUTER_BOUND('',#50,.T.);
#33=FACE_OUTER_BOUND('',#51,.T.);
#34=FACE_OUTER_BOUND('',#52,.T.);
#35=FACE_OUTER_BOUND('',#53,.T.);
#36=FACE_OUTER_BOUND('',#54,.T.);
#37=FACE_OUTER_BOUND('',#55,.T.);
#38=FACE_OUTER_BOUND('',#56,.T.);
#39=FACE_OUTER_BOUND('',#57,.T.);
#40=FACE_OUTER_BOUND('',#58,.T.);
#41=FACE_OUTER_BOUND('',#59,.T.);
#42=FACE_OUTER_BOUND('',#60,.T.);
#43=FACE_OUTER_BOUND('',#61,.T.);
#44=FACE_OUTER_BOUND('',#62,.T.);
#45=EDGE_LOOP('',(#209,#210,#211,#212,#213));
#46=EDGE_LOOP('',(#214,#215,#216));
#47=EDGE_LOOP('',(#217,#218,#219,#220,#221,#222));
#48=EDGE_LOOP('',(#223,#224,#225));
#49=EDGE_LOOP('',(#226,#227,#228,#229,#230));
#50=EDGE_LOOP('',(#231,#232,#233,#234,#235,#236));
#51=EDGE_LOOP('',(#237,#238,#239,#240));
#52=EDGE_LOOP('',(#241,#242,#243,#244));
#53=EDGE_LOOP('',(#245,#246,#247,#248));
#54=EDGE_LOOP('',(#249,#250,#251,#252));
#55=EDGE_LOOP('',(#253,#254,#255,#256));
#56=EDGE_LOOP('',(#257,#258,#259,#260,#261));
#57=EDGE_LOOP('',(#262,#263,#264));
#58=EDGE_LOOP('',(#265,#266,#267));
#59=EDGE_LOOP('',(#268,#269,#270,#271,#272));
#60=EDGE_LOOP('',(#273,#274,#275,#276,#277,#278));
#61=EDGE_LOOP('',(#279,#280,#281,#282));
#62=EDGE_LOOP('',(#283,#284,#285,#286,#287,#288));
#63=LINE('',#464,#103);
#64=LINE('',#466,#104);
#65=LINE('',#468,#105);
#66=LINE('',#470,#106);
#67=LINE('',#471,#107);
#68=LINE('',#474,#108);
#69=LINE('',#475,#109);
#70=LINE('',#478,#110);
#71=LINE('',#480,#111);
#72=LINE('',#482,#112);
#73=LINE('',#483,#113);
#74=LINE('',#486,#114);
#75=LINE('',#487,#115);
#76=LINE('',#490,#116);
#77=LINE('',#491,#117);
#78=LINE('',#494,#118);
#79=LINE('',#496,#119);
#80=LINE('',#497,#120);
#81=LINE('',#499,#121);
#82=LINE('',#501,#122);
#83=LINE('',#507,#123);
#84=LINE('',#509,#124);
#85=LINE('',#511,#125);
#86=LINE('',#512,#126);
#87=LINE('',#515,#127);
#88=LINE('',#517,#128);
#89=LINE('',#518,#129);
#90=LINE('',#522,#130);
#91=LINE('',#524,#131);
#92=LINE('',#526,#132);
#93=LINE('',#528,#133);
#94=LINE('',#529,#134);
#95=LINE('',#532,#135);
#96=LINE('',#533,#136);
#97=LINE('',#536,#137);
#98=LINE('',#537,#138);
#99=LINE('',#539,#139);
#100=LINE('',#540,#140);
#101=LINE('',#542,#141);
#102=LINE('',#544,#142);
#103=VECTOR('',#379,10.);
#104=VECTOR('',#380,10.);
#105=VECTOR('',#381,10.);
#106=VECTOR('',#382,10.);
#107=VECTOR('',#383,10.);
#108=VECTOR('',#386,10.);
#109=VECTOR('',#387,10.);
#110=VECTOR('',#390,10.);
#111=VECTOR('',#391,10.);
#112=VECTOR('',#392,10.);
#113=VECTOR('',#393,10.);
#114=VECTOR('',#396,10.);
#115=VECTOR('',#397,10.);
#116=VECTOR('',#400,10.);
#117=VECTOR('',#401,10.);
#118=VECTOR('',#404,10.);
#119=VECTOR('',#405,10.);
#120=VECTOR('',#406,10.);
#121=VECTOR('',#409,10.);
#122=VECTOR('',#412,10.);
#123=VECTOR('',#419,10.);
#124=VECTOR('',#420,10.);
#125=VECTOR('',#421,10.);
#126=VECTOR('',#422,10.);
#127=VECTOR('',#425,10.);
#128=VECTOR('',#426,10.);
#129=VECTOR('',#427,10.);
#130=VECTOR('',#430,10.);
#131=VECTOR('',#431,10.);
#132=VECTOR('',#432,10.);
#133=VECTOR('',#433,10.);
#134=VECTOR('',#434,10.);
#135=VECTOR('',#437,10.);
#136=VECTOR('',#438,10.);
#137=VECTOR('',#441,10.);
#138=VECTOR('',#442,10.);
#139=VECTOR('',#445,10.);
#140=VECTOR('',#446,10.);
#141=VECTOR('',#449,10.);
#142=VECTOR('',#452,10.);
#143=VERTEX_POINT('',#462);
#144=VERTEX_POINT('',#463);
#145=VERTEX_POINT('',#465);
#146=VERTEX_POINT('',#467);
#147=VERTEX_POINT('',#469);
#148=VERTEX_POINT('',#473);
#149=VERTEX_POINT('',#477);
#150=VERTEX_POINT('',#479);
#151=VERTEX_POINT('',#481);
#152=VERTEX_POINT('',#485);
#153=VERTEX_POINT('',#489);
#154=VERTEX_POINT('',#493);
#155=VERTEX_POINT('',#495);
#156=VERTEX_POINT('',#505);
#157=VERTEX_POINT('',#506);
#158=VERTEX_POINT('',#508);
#159=VERTEX_POINT('',#510);
#160=VERTEX_POINT('',#514);
#161=VERTEX_POINT('',#516);
#162=VERTEX_POINT('',#520);
#163=VERTEX_POINT('',#521);
#164=VERTEX_POINT('',#523);
#165=VERTEX_POINT('',#525);
#166=VERTEX_POINT('',#527);
#167=VERTEX_POINT('',#531);
#168=VERTEX_POINT('',#535);
#169=EDGE_CURVE('',#143,#144,#63,.T.);
#170=EDGE_CURVE('',#145,#143,#64,.T.);
#171=EDGE_CURVE('',#146,#145,#65,.T.);
#172=EDGE_CURVE('',#146,#147,#66,.T.);
#173=EDGE_CURVE('',#144,#147,#67,.T.);
#174=EDGE_CURVE('',#148,#146,#68,.T.);
#175=EDGE_CURVE('',#147,#148,#69,.T.);
#176=EDGE_CURVE('',#149,#148,#70,.T.);
#177=EDGE_CURVE('',#150,#149,#71,.T.);
#178=EDGE_CURVE('',#150,#151,#72,.T.);
#179=EDGE_CURVE('',#144,#151,#73,.T.);
#180=EDGE_CURVE('',#152,#145,#74,.T.);
#181=EDGE_CURVE('',#146,#152,#75,.T.);
#182=EDGE_CURVE('',#149,#153,#76,.T.);
#183=EDGE_CURVE('',#153,#152,#77,.T.);
#184=EDGE_CURVE('',#154,#143,#78,.T.);
#185=EDGE_CURVE('',#155,#154,#79,.T.);
#186=EDGE_CURVE('',#153,#155,#80,.T.);
#187=EDGE_CURVE('',#155,#150,#81,.T.);
#188=EDGE_CURVE('',#151,#154,#82,.T.);
#189=EDGE_CURVE('',#156,#157,#83,.T.);
#190=EDGE_CURVE('',#158,#156,#84,.T.);
#191=EDGE_CURVE('',#159,#158,#85,.T.);
#192=EDGE_CURVE('',#157,#159,#86,.T.);
#193=EDGE_CURVE('',#158,#160,#87,.T.);
#194=EDGE_CURVE('',#160,#161,#88,.T.);
#195=EDGE_CURVE('',#161,#159,#89,.T.);
#196=EDGE_CURVE('',#162,#163,#90,.T.);
#197=EDGE_CURVE('',#164,#162,#91,.T.);
#198=EDGE_CURVE('',#165,#164,#92,.T.);
#199=EDGE_CURVE('',#165,#166,#93,.T.);
#200=EDGE_CURVE('',#163,#166,#94,.T.);
#201=EDGE_CURVE('',#167,#165,#95,.T.);
#202=EDGE_CURVE('',#167,#164,#96,.T.);
#203=EDGE_CURVE('',#165,#168,#97,.T.);
#204=EDGE_CURVE('',#166,#168,#98,.T.);
#205=EDGE_CURVE('',#168,#160,#99,.T.);
#206=EDGE_CURVE('',#161,#167,#100,.T.);
#207=EDGE_CURVE('',#163,#156,#101,.T.);
#208=EDGE_CURVE('',#157,#162,#102,.T.);
#209=ORIENTED_EDGE('',*,*,#169,.F.);
#210=ORIENTED_EDGE('',*,*,#170,.F.);
#211=ORIENTED_EDGE('',*,*,#171,.F.);
#212=ORIENTED_EDGE('',*,*,#172,.T.);
#213=ORIENTED_EDGE('',*,*,#173,.F.);
#214=ORIENTED_EDGE('',*,*,#174,.F.);
#215=ORIENTED_EDGE('',*,*,#175,.F.);
#216=ORIENTED_EDGE('',*,*,#172,.F.);
#217=ORIENTED_EDGE('',*,*,#173,.T.);
#218=ORIENTED_EDGE('',*,*,#175,.T.);
#219=ORIENTED_EDGE('',*,*,#176,.F.);
#220=ORIENTED_EDGE('',*,*,#177,.F.);
#221=ORIENTED_EDGE('',*,*,#178,.T.);
#222=ORIENTED_EDGE('',*,*,#179,.F.);
#223=ORIENTED_EDGE('',*,*,#171,.T.);
#224=ORIENTED_EDGE('',*,*,#180,.F.);
#225=ORIENTED_EDGE('',*,*,#181,.F.);
#226=ORIENTED_EDGE('',*,*,#182,.F.);
#227=ORIENTED_EDGE('',*,*,#176,.T.);
#228=ORIENTED_EDGE('',*,*,#174,.T.);
#229=ORIENTED_EDGE('',*,*,#181,.T.);
#230=ORIENTED_EDGE('',*,*,#183,.F.);
#231=ORIENTED_EDGE('',*,*,#183,.T.);
#232=ORIENTED_EDGE('',*,*,#180,.T.);
#233=ORIENTED_EDGE('',*,*,#170,.T.);
#234=ORIENTED_EDGE('',*,*,#184,.F.);
#235=ORIENTED_EDGE('',*,*,#185,.F.);
#236=ORIENTED_EDGE('',*,*,#186,.F.);
#237=ORIENTED_EDGE('',*,*,#182,.T.);
#238=ORIENTED_EDGE('',*,*,#186,.T.);
#239=ORIENTED_EDGE('',*,*,#187,.T.);
#240=ORIENTED_EDGE('',*,*,#177,.T.);
#241=ORIENTED_EDGE('',*,*,#169,.T.);
#242=ORIENTED_EDGE('',*,*,#179,.T.);
#243=ORIENTED_EDGE('',*,*,#188,.T.);
#244=ORIENTED_EDGE('',*,*,#184,.T.);
#245=ORIENTED_EDGE('',*,*,#185,.T.);
#246=ORIENTED_EDGE('',*,*,#188,.F.);
#247=ORIENTED_EDGE('',*,*,#178,.F.);
#248=ORIENTED_EDGE('',*,*,#187,.F.);
#249=ORIENTED_EDGE('',*,*,#189,.F.);
#250=ORIENTED_EDGE('',*,*,#190,.F.);
#251=ORIENTED_EDGE('',*,*,#191,.F.);
#252=ORIENTED_EDGE('',*,*,#192,.F.);
#253=ORIENTED_EDGE('',*,*,#191,.T.);
#254=ORIENTED_EDGE('',*,*,#193,.T.);
#255=ORIENTED_EDGE('',*,*,#194,.T.);
#256=ORIENTED_EDGE('',*,*,#195,.T.);
#257=ORIENTED_EDGE('',*,*,#196,.F.);
#258=ORIENTED_EDGE('',*,*,#197,.F.);
#259=ORIENTED_EDGE('',*,*,#198,.F.);
#260=ORIENTED_EDGE('',*,*,#199,.T.);
#261=ORIENTED_EDGE('',*,*,#200,.F.);
#262=ORIENTED_EDGE('',*,*,#201,.T.);
#263=ORIENTED_EDGE('',*,*,#198,.T.);
#264=ORIENTED_EDGE('',*,*,#202,.F.);
#265=ORIENTED_EDGE('',*,*,#199,.F.);
#266=ORIENTED_EDGE('',*,*,#203,.T.);
#267=ORIENTED_EDGE('',*,*,#204,.F.);
#268=ORIENTED_EDGE('',*,*,#194,.F.);
#269=ORIENTED_EDGE('',*,*,#205,.F.);
#270=ORIENTED_EDGE('',*,*,#203,.F.);
#271=ORIENTED_EDGE('',*,*,#201,.F.);
#272=ORIENTED_EDGE('',*,*,#206,.F.);
#273=ORIENTED_EDGE('',*,*,#190,.T.);
#274=ORIENTED_EDGE('',*,*,#207,.F.);
#275=ORIENTED_EDGE('',*,*,#200,.T.);
#276=ORIENTED_EDGE('',*,*,#204,.T.);
#277=ORIENTED_EDGE('',*,*,#205,.T.);
#278=ORIENTED_EDGE('',*,*,#193,.F.);
#279=ORIENTED_EDGE('',*,*,#189,.T.);
#280=ORIENTED_EDGE('',*,*,#208,.T.);
#281=ORIENTED_EDGE('',*,*,#196,.T.);
#282=ORIENTED_EDGE('',*,*,#207,.T.);
#283=ORIENTED_EDGE('',*,*,#192,.T.);
#284=ORIENTED_EDGE('',*,*,#195,.F.);
#285=ORIENTED_EDGE('',*,*,#206,.T.);
#286=ORIENTED_EDGE('',*,*,#202,.T.);
#287=ORIENTED_EDGE('',*,*,#197,.T.);
#288=ORIENTED_EDGE('',*,*,#208,.F.);
#289=PLANE('',#352);
#290=PLANE('',#353);
#291=PLANE('',#354);
#292=PLANE('',#355);
#293=PLANE('',#356);
#294=PLANE('',#357);
#295=PLANE('',#358);
#296=PLANE('',#359);
#297=PLANE('',#360);
#298=PLANE('',#362);
#299=PLANE('',#363);
#300=PLANE('',#364);
#301=PLANE('',#365);
#302=PLANE('',#366);
#303=PLANE('',#367);
#304=PLANE('',#368);
#305=PLANE('',#369);
#306=PLANE('',#370);
#307=ADVANCED_FACE('',(#27),#289,.F.);
#308=ADVANCED_FACE('',(#28),#290,.F.);
#309=ADVANCED_FACE('',(#29),#291,.F.);
#310=ADVANCED_FACE('',(#30),#292,.F.);
#311=ADVANCED_FACE('',(#31),#293,.F.);
#312=ADVANCED_FACE('',(#32),#294,.F.);
#313=ADVANCED_FACE('',(#33),#295,.T.);
#314=ADVANCED_FACE('',(#34),#296,.F.);
#315=ADVANCED_FACE('',(#35),#297,.F.);
#316=ADVANCED_FACE('',(#36),#298,.F.);
#317=ADVANCED_FACE('',(#37),#299,.T.);
#318=ADVANCED_FACE('',(#38),#300,.T.);
#319=ADVANCED_FACE('',(#39),#301,.T.);
#320=ADVANCED_FACE('',(#40),#302,.T.);
#321=ADVANCED_FACE('',(#41),#303,.T.);
#322=ADVANCED_FACE('',(#42),#304,.F.);
#323=ADVANCED_FACE('',(#43),#305,.F.);
#324=ADVANCED_FACE('',(#44),#306,.F.);
#325=CLOSED_SHELL('',(#307,#308,#309,#310,#311,#312,#313,#314,#315));
#326=CLOSED_SHELL('',(#316,#317,#318,#319,#320,#321,#322,#323,#324));
#327=DERIVED_UNIT_ELEMENT(#331,1.);
#328=DERIVED_UNIT_ELEMENT(#557,3.);
#329=DERIVED_UNIT_ELEMENT(#331,1.);
#330=DERIVED_UNIT_ELEMENT(#557,3.);
#331=(
MASS_UNIT()
NAMED_UNIT(*)
SI_UNIT(.KILO.,.GRAM.)
);
#332=DERIVED_UNIT((#327,#328));
#333=DERIVED_UNIT((#329,#330));
#334=MEASURE_REPRESENTATION_ITEM('density measure',
POSITIVE_RATIO_MEASURE(7850.),#332);
#335=MEASURE_REPRESENTATION_ITEM('density measure',
POSITIVE_RATIO_MEASURE(7850.),#333);
#336=PROPERTY_DEFINITION_REPRESENTATION(#346,#340);
#337=PROPERTY_DEFINITION_REPRESENTATION(#347,#341);
#338=PROPERTY_DEFINITION_REPRESENTATION(#348,#342);
#339=PROPERTY_DEFINITION_REPRESENTATION(#349,#343);
#340=REPRESENTATION('material name',(#344),#553);
#341=REPRESENTATION('density',(#334),#553);
#342=REPRESENTATION('material name',(#345),#554);
#343=REPRESENTATION('density',(#335),#554);
#344=DESCRIPTIVE_REPRESENTATION_ITEM('\X2\92FC\X0\','\X2\92FC\X0\');
#345=DESCRIPTIVE_REPRESENTATION_ITEM('\X2\92FC\X0\','\X2\92FC\X0\');
#346=PROPERTY_DEFINITION('material property','material name',#573);
#347=PROPERTY_DEFINITION('material property','density of part',#573);
#348=PROPERTY_DEFINITION('material property','material name',#574);
#349=PROPERTY_DEFINITION('material property','density of part',#574);
#350=AXIS2_PLACEMENT_3D('placement',#459,#373,#374);
#351=AXIS2_PLACEMENT_3D('placement',#460,#375,#376);
#352=AXIS2_PLACEMENT_3D('',#461,#377,#378);
#353=AXIS2_PLACEMENT_3D('',#472,#384,#385);
#354=AXIS2_PLACEMENT_3D('',#476,#388,#389);
#355=AXIS2_PLACEMENT_3D('',#484,#394,#395);
#356=AXIS2_PLACEMENT_3D('',#488,#398,#399);
#357=AXIS2_PLACEMENT_3D('',#492,#402,#403);
#358=AXIS2_PLACEMENT_3D('',#498,#407,#408);
#359=AXIS2_PLACEMENT_3D('',#500,#410,#411);
#360=AXIS2_PLACEMENT_3D('',#502,#413,#414);
#361=AXIS2_PLACEMENT_3D('placement',#503,#415,#416);
#362=AXIS2_PLACEMENT_3D('',#504,#417,#418);
#363=AXIS2_PLACEMENT_3D('',#513,#423,#424);
#364=AXIS2_PLACEMENT_3D('',#519,#428,#429);
#365=AXIS2_PLACEMENT_3D('',#530,#435,#436);
#366=AXIS2_PLACEMENT_3D('',#534,#439,#440);
#367=AXIS2_PLACEMENT_3D('',#538,#443,#444);
#368=AXIS2_PLACEMENT_3D('',#541,#447,#448);
#369=AXIS2_PLACEMENT_3D('',#543,#450,#451);
#370=AXIS2_PLACEMENT_3D('',#545,#453,#454);
#371=AXIS2_PLACEMENT_3D('',#546,#455,#456);
#372=AXIS2_PLACEMENT_3D('',#547,#457,#458);
#373=DIRECTION('axis',(0.,0.,1.));
#374=DIRECTION('refdir',(1.,0.,0.));
#375=DIRECTION('axis',(0.,0.,1.));
#376=DIRECTION('refdir',(1.,0.,0.));
#377=DIRECTION('center_axis',(-0.707106781186548,0.,0.707106781186548));
#378=DIRECTION('ref_axis',(0.707106781186548,0.,0.707106781186548));
#379=DIRECTION('',(0.707106781186548,0.,0.707106781186548));
#380=DIRECTION('',(0.,-1.,0.));
#381=DIRECTION('',(-0.707106781186548,0.,-0.707106781186548));
#382=DIRECTION('',(0.707106781186548,0.,0.707106781186548));
#383=DIRECTION('',(0.,1.,0.));
#384=DIRECTION('center_axis',(0.,1.,0.));
#385=DIRECTION('ref_axis',(0.,0.,1.));
#386=DIRECTION('',(-0.707106781186548,0.,0.707106781186548));
#387=DIRECTION('',(0.,0.,-1.));
#388=DIRECTION('center_axis',(-1.,0.,0.));
#389=DIRECTION('ref_axis',(0.,-1.,0.));
#390=DIRECTION('',(0.,-1.,0.));
#391=DIRECTION('',(0.,0.,-1.));
#392=DIRECTION('',(0.,-1.,0.));
#393=DIRECTION('',(0.,0.,1.));
#394=DIRECTION('center_axis',(0.,-1.,0.));
#395=DIRECTION('ref_axis',(0.,0.,-1.));
#396=DIRECTION('',(0.,0.,-1.));
#397=DIRECTION('',(-0.707106781186548,0.,0.707106781186548));
#398=DIRECTION('center_axis',(0.707106781186548,0.,0.707106781186548));
#399=DIRECTION('ref_axis',(-0.707106781186548,0.,0.707106781186548));
#400=DIRECTION('',(-0.707106781186548,0.,0.707106781186548));
#401=DIRECTION('',(0.,-1.,0.));
#402=DIRECTION('center_axis',(1.,0.,0.));
#403=DIRECTION('ref_axis',(0.,1.,0.));
#404=DIRECTION('',(0.,0.,-1.));
#405=DIRECTION('',(0.,-1.,0.));
#406=DIRECTION('',(0.,0.,1.));
#407=DIRECTION('center_axis',(0.,1.,0.));
#408=DIRECTION('ref_axis',(0.,0.,1.));
#409=DIRECTION('',(1.,0.,0.));
#410=DIRECTION('center_axis',(0.,1.,0.));
#411=DIRECTION('ref_axis',(0.,0.,1.));
#412=DIRECTION('',(-1.,0.,0.));
#413=DIRECTION('center_axis',(0.,0.,-1.));
#414=DIRECTION('ref_axis',(0.,1.,0.));
#415=DIRECTION('axis',(0.,0.,1.));
#416=DIRECTION('refdir',(1.,0.,0.));
#417=DIRECTION('center_axis',(-1.48029736616688E-16,0.,1.));
#418=DIRECTION('ref_axis',(-1.,0.,-1.48029736616688E-16));
#419=DIRECTION('',(1.,0.,1.48029736616688E-16));
#420=DIRECTION('',(0.,-1.,0.));
#421=DIRECTION('',(-1.,0.,-1.48029736616688E-16));
#422=DIRECTION('',(0.,1.,0.));
#423=DIRECTION('center_axis',(0.,1.,0.));
#424=DIRECTION('ref_axis',(0.,0.,-1.));
#425=DIRECTION('',(0.,0.,1.));
#426=DIRECTION('',(0.707106781186548,0.,-0.707106781186548));
#427=DIRECTION('',(0.,0.,-1.));
#428=DIRECTION('center_axis',(-0.707106781186548,0.,0.707106781186548));
#429=DIRECTION('ref_axis',(0.707106781186548,0.,0.707106781186548));
#430=DIRECTION('',(-0.707106781186548,0.,-0.707106781186548));
#431=DIRECTION('',(0.,-1.,0.));
#432=DIRECTION('',(0.707106781186548,0.,0.707106781186548));
#433=DIRECTION('',(-0.707106781186548,0.,-0.707106781186548));
#434=DIRECTION('',(0.,1.,0.));
#435=DIRECTION('center_axis',(0.,1.,0.));
#436=DIRECTION('ref_axis',(0.,0.,1.));
#437=DIRECTION('',(-0.707106781186548,0.,0.707106781186548));
#438=DIRECTION('',(0.,0.,1.));
#439=DIRECTION('center_axis',(0.,-1.,0.));
#440=DIRECTION('ref_axis',(0.,0.,-1.));
#441=DIRECTION('',(-0.707106781186548,0.,0.707106781186548));
#442=DIRECTION('',(0.,0.,1.));
#443=DIRECTION('center_axis',(0.707106781186548,0.,0.707106781186548));
#444=DIRECTION('ref_axis',(-0.707106781186548,0.,0.707106781186548));
#445=DIRECTION('',(0.,1.,0.));
#446=DIRECTION('',(0.,-1.,0.));
#447=DIRECTION('center_axis',(1.,0.,0.));
#448=DIRECTION('ref_axis',(0.,-1.,0.));
#449=DIRECTION('',(0.,0.,-1.));
#450=DIRECTION('center_axis',(0.,1.,0.));
#451=DIRECTION('ref_axis',(0.,0.,-1.));
#452=DIRECTION('',(0.,0.,1.));
#453=DIRECTION('center_axis',(-1.,0.,0.));
#454=DIRECTION('ref_axis',(0.,1.,0.));
#455=DIRECTION('',(0.,0.,1.));
#456=DIRECTION('',(1.,0.,0.));
#457=DIRECTION('',(0.,0.,1.));
#458=DIRECTION('',(1.,0.,0.));
#459=CARTESIAN_POINT('',(0.,0.,0.));
#460=CARTESIAN_POINT('',(0.,0.,0.));
#461=CARTESIAN_POINT('Origin',(0.,0.,0.));
#462=CARTESIAN_POINT('',(0.,0.,0.));
#463=CARTESIAN_POINT('',(120.,0.,120.));
#464=CARTESIAN_POINT('',(46.25,0.,46.25));
#465=CARTESIAN_POINT('',(0.,60.,0.));
#466=CARTESIAN_POINT('',(0.,60.,0.));
#467=CARTESIAN_POINT('',(60.,60.,60.));
#468=CARTESIAN_POINT('',(30.,60.,30.));
#469=CARTESIAN_POINT('',(120.,60.,120.));
#470=CARTESIAN_POINT('',(120.,60.,120.));
#471=CARTESIAN_POINT('',(120.,30.,120.));
#472=CARTESIAN_POINT('Origin',(60.,60.,60.));
#473=CARTESIAN_POINT('',(120.,60.,0.));
#474=CARTESIAN_POINT('',(0.,60.,120.));
#475=CARTESIAN_POINT('',(120.,60.,92.5));
#476=CARTESIAN_POINT('Origin',(120.,60.,125.));
#477=CARTESIAN_POINT('',(120.,120.,0.));
#478=CARTESIAN_POINT('',(120.,60.,0.));
#479=CARTESIAN_POINT('',(120.,120.,250.));
#480=CARTESIAN_POINT('',(120.,120.,125.));
#481=CARTESIAN_POINT('',(120.,0.,250.));
#482=CARTESIAN_POINT('',(120.,60.,250.));
#483=CARTESIAN_POINT('',(120.,0.,125.));
#484=CARTESIAN_POINT('Origin',(60.,60.,60.));
#485=CARTESIAN_POINT('',(0.,60.,120.));
#486=CARTESIAN_POINT('',(0.,60.,92.5));
#487=CARTESIAN_POINT('',(0.,60.,120.));
#488=CARTESIAN_POINT('Origin',(120.,120.,0.));
#489=CARTESIAN_POINT('',(0.,120.,120.));
#490=CARTESIAN_POINT('',(73.75,120.,46.25));
#491=CARTESIAN_POINT('',(-8.88178419700125E-15,90.,120.));
#492=CARTESIAN_POINT('Origin',(0.,60.,125.));
#493=CARTESIAN_POINT('',(0.,0.,250.));
#494=CARTESIAN_POINT('',(0.,0.,125.));
#495=CARTESIAN_POINT('',(0.,120.,250.));
#496=CARTESIAN_POINT('',(0.,60.,250.));
#497=CARTESIAN_POINT('',(0.,120.,125.));
#498=CARTESIAN_POINT('Origin',(60.,120.,125.));
#499=CARTESIAN_POINT('',(60.,120.,250.));
#500=CARTESIAN_POINT('Origin',(60.,0.,125.));
#501=CARTESIAN_POINT('',(60.,0.,250.));
#502=CARTESIAN_POINT('Origin',(60.,60.,250.));
#503=CARTESIAN_POINT('',(0.,0.,0.));
#504=CARTESIAN_POINT('Origin',(120.,120.,-130.));
#505=CARTESIAN_POINT('',(0.,0.,-130.));
#506=CARTESIAN_POINT('',(120.,0.,-130.));
#507=CARTESIAN_POINT('',(90.,0.,-130.));
#508=CARTESIAN_POINT('',(0.,120.,-130.));
#509=CARTESIAN_POINT('',(0.,90.,-130.));
#510=CARTESIAN_POINT('',(120.,120.,-130.));
#511=CARTESIAN_POINT('',(90.,120.,-130.));
#512=CARTESIAN_POINT('',(120.,90.,-130.));
#513=CARTESIAN_POINT('Origin',(60.,120.,0.));
#514=CARTESIAN_POINT('',(0.,120.,120.));
#515=CARTESIAN_POINT('',(0.,120.,0.));
#516=CARTESIAN_POINT('',(120.,120.,0.));
#517=CARTESIAN_POINT('',(105.,120.,15.));
#518=CARTESIAN_POINT('',(120.,120.,0.));
#519=CARTESIAN_POINT('Origin',(0.,0.,0.));
#520=CARTESIAN_POINT('',(120.,0.,120.));
#521=CARTESIAN_POINT('',(0.,0.,0.));
#522=CARTESIAN_POINT('',(15.,0.,15.));
#523=CARTESIAN_POINT('',(120.,60.,120.));
#524=CARTESIAN_POINT('',(120.,30.,120.));
#525=CARTESIAN_POINT('',(60.,60.,60.));
#526=CARTESIAN_POINT('',(120.,60.,120.));
#527=CARTESIAN_POINT('',(0.,60.,0.));
#528=CARTESIAN_POINT('',(30.,60.,30.));
#529=CARTESIAN_POINT('',(0.,30.,0.));
#530=CARTESIAN_POINT('Origin',(60.,60.,60.));
#531=CARTESIAN_POINT('',(120.,60.,0.));
#532=CARTESIAN_POINT('',(0.,60.,120.));
#533=CARTESIAN_POINT('',(120.,60.,30.));
#534=CARTESIAN_POINT('Origin',(60.,60.,60.));
#535=CARTESIAN_POINT('',(0.,60.,120.));
#536=CARTESIAN_POINT('',(0.,60.,120.));
#537=CARTESIAN_POINT('',(0.,60.,30.));
#538=CARTESIAN_POINT('Origin',(120.,120.,0.));
#539=CARTESIAN_POINT('',(0.,90.,120.));
#540=CARTESIAN_POINT('',(120.,90.,0.));
#541=CARTESIAN_POINT('Origin',(0.,60.,0.));
#542=CARTESIAN_POINT('',(0.,0.,0.));
#543=CARTESIAN_POINT('Origin',(60.,0.,0.));
#544=CARTESIAN_POINT('',(120.,0.,0.));
#545=CARTESIAN_POINT('Origin',(120.,60.,0.));
#546=CARTESIAN_POINT('',(0.,0.,200.));
#547=CARTESIAN_POINT('',(0.,0.,0.));
#548=UNCERTAINTY_MEASURE_WITH_UNIT(LENGTH_MEASURE(0.01),#556,
'DISTANCE_ACCURACY_VALUE',
'Maximum model space distance between geometric entities at asserted c
onnectivities');
#549=UNCERTAINTY_MEASURE_WITH_UNIT(LENGTH_MEASURE(0.01),#556,
'DISTANCE_ACCURACY_VALUE',
'Maximum model space distance between geometric entities at asserted c
onnectivities');
#550=UNCERTAINTY_MEASURE_WITH_UNIT(LENGTH_MEASURE(0.01),#556,
'DISTANCE_ACCURACY_VALUE',
'Maximum model space distance between geometric entities at asserted c
onnectivities');
#551=UNCERTAINTY_MEASURE_WITH_UNIT(LENGTH_MEASURE(0.01),#556,
'DISTANCE_ACCURACY_VALUE',
'Maximum model space distance between geometric entities at asserted c
onnectivities');
#552=(
GEOMETRIC_REPRESENTATION_CONTEXT(3)
GLOBAL_UNCERTAINTY_ASSIGNED_CONTEXT((#548))
GLOBAL_UNIT_ASSIGNED_CONTEXT((#556,#558,#559))
REPRESENTATION_CONTEXT('','3D')
);
#553=(
GEOMETRIC_REPRESENTATION_CONTEXT(3)
GLOBAL_UNCERTAINTY_ASSIGNED_CONTEXT((#549))
GLOBAL_UNIT_ASSIGNED_CONTEXT((#556,#558,#559))
REPRESENTATION_CONTEXT('','3D')
);
#554=(
GEOMETRIC_REPRESENTATION_CONTEXT(3)
GLOBAL_UNCERTAINTY_ASSIGNED_CONTEXT((#550))
GLOBAL_UNIT_ASSIGNED_CONTEXT((#556,#558,#559))
REPRESENTATION_CONTEXT('','3D')
);
#555=(
GEOMETRIC_REPRESENTATION_CONTEXT(3)
GLOBAL_UNCERTAINTY_ASSIGNED_CONTEXT((#551))
GLOBAL_UNIT_ASSIGNED_CONTEXT((#556,#558,#559))
REPRESENTATION_CONTEXT('','3D')
);
#556=(
LENGTH_UNIT()
NAMED_UNIT(*)
SI_UNIT(.MILLI.,.METRE.)
);
#557=(
LENGTH_UNIT()
NAMED_UNIT(*)
SI_UNIT($,.METRE.)
);
#558=(
NAMED_UNIT(*)
PLANE_ANGLE_UNIT()
SI_UNIT($,.RADIAN.)
);
#559=(
NAMED_UNIT(*)
SI_UNIT($,.STERADIAN.)
SOLID_ANGLE_UNIT()
);
#560=SHAPE_DEFINITION_REPRESENTATION(#563,#568);
#561=SHAPE_DEFINITION_REPRESENTATION(#564,#569);
#562=SHAPE_DEFINITION_REPRESENTATION(#565,#570);
#563=PRODUCT_DEFINITION_SHAPE('',$,#572);
#564=PRODUCT_DEFINITION_SHAPE('',$,#573);
#565=PRODUCT_DEFINITION_SHAPE('',$,#574);
#566=PRODUCT_DEFINITION_SHAPE($,$,#17);
#567=PRODUCT_DEFINITION_SHAPE($,$,#18);
#568=SHAPE_REPRESENTATION('',(#350,#371,#372),#552);
#569=SHAPE_REPRESENTATION('',(#351),#553);
#570=SHAPE_REPRESENTATION('',(#361),#554);
#571=PRODUCT_DEFINITION_CONTEXT('part definition',#582,'design');
#572=PRODUCT_DEFINITION('\X2\5E7330443059304B7D99304E\X0\',
'\X2\5E7330443059304B7D99304E\X0\ v4',#575,#571);
#573=PRODUCT_DEFINITION('\X2\30B330F330DD30FC30CD30F330C8\X0\1',
'\X2\30B330F330DD30FC30CD30F330C8\X0\1',#576,#571);
#574=PRODUCT_DEFINITION('\X2\30B330F330DD30FC30CD30F330C8\X0\2',
'\X2\30B330F330DD30FC30CD30F330C8\X0\2',#577,#571);
#575=PRODUCT_DEFINITION_FORMATION('',$,#584);
#576=PRODUCT_DEFINITION_FORMATION('',$,#585);
#577=PRODUCT_DEFINITION_FORMATION('',$,#586);
#578=PRODUCT_RELATED_PRODUCT_CATEGORY('\X2\5E7330443059304B7D99304E\X0\ 
v4','\X2\5E7330443059304B7D99304E\X0\ v4',(#584));
#579=PRODUCT_RELATED_PRODUCT_CATEGORY('\X2\30B330F330DD30FC30CD30F330C8\X0\1',
'\X2\30B330F330DD30FC30CD30F330C8\X0\1',(#585));
#580=PRODUCT_RELATED_PRODUCT_CATEGORY('\X2\30B330F330DD30FC30CD30F330C8\X0\2',
'\X2\30B330F330DD30FC30CD30F330C8\X0\2',(#586));
#581=APPLICATION_PROTOCOL_DEFINITION('international standard',
'automotive_design',2009,#582);
#582=APPLICATION_CONTEXT(
'Core Data for Automotive Mechanical Design Process');
#583=PRODUCT_CONTEXT('part definition',#582,'mechanical');
#584=PRODUCT('\X2\5E7330443059304B7D99304E\X0\','\X2\5E7330443059304B7D99304E\X0\ 
v4',$,(#583));
#585=PRODUCT('\X2\30B330F330DD30FC30CD30F330C8\X0\1',
'\X2\30B330F330DD30FC30CD30F330C8\X0\1',$,(#583));
#586=PRODUCT('\X2\30B330F330DD30FC30CD30F330C8\X0\2',
'\X2\30B330F330DD30FC30CD30F330C8\X0\2',$,(#583));
#587=PRESENTATION_STYLE_ASSIGNMENT((#589));
#588=PRESENTATION_STYLE_ASSIGNMENT((#590));
#589=SURFACE_STYLE_USAGE(.BOTH.,#591);
#590=SURFACE_STYLE_USAGE(.BOTH.,#592);
#591=SURFACE_SIDE_STYLE('',(#593));
#592=SURFACE_SIDE_STYLE('',(#594));
#593=SURFACE_STYLE_FILL_AREA(#595);
#594=SURFACE_STYLE_FILL_AREA(#596);
#595=FILL_AREA_STYLE('\X2\92FC\X0\ - \X2\30B530C630F3\X0\',(#597));
#596=FILL_AREA_STYLE('\X2\30D130A630C030FC\X0\ \X2\30B330FC30C8\X0\ - 
\X2\7C973044\X0\(\X2\767D\X0\)',(#598));
#597=FILL_AREA_STYLE_COLOUR('\X2\92FC\X0\ - \X2\30B530C630F3\X0\',#599);
#598=FILL_AREA_STYLE_COLOUR('\X2\30D130A630C030FC\X0\ \X2\30B330FC30C8\X0\ 
- \X2\7C973044\X0\(\X2\767D\X0\)',#600);
#599=COLOUR_RGB('\X2\92FC\X0\ - \X2\30B530C630F3\X0\',0.627450980392157,
0.627450980392157,0.627450980392157);
#600=COLOUR_RGB('\X2\30D130A630C030FC\X0\ \X2\30B330FC30C8\X0\ - \X2\7C973044\X0\(
\X2\767D\X0\)',0.964705882352941,0.964705882352941,0.952941176470588);
ENDSEC;
END-ISO-10303-21;
